  0
SECTION
  2
HEADER
  9
$ACADVER
  1
AC1014
  9
$HANDSEED
  5
FFFF
  9
$MEASUREMENT
 70
     1
  0
ENDSEC
  0
SECTION
  2
TABLES
  0
TABLE
  2
VPORT
  5
8
330
0
100
AcDbSymbolTable
 70
     4
  0
VPORT
  5
2E
330
8
100
AcDbSymbolTableRecord
100
AcDbViewportTableRecord
  2
*ACTIVE
 70
     0
 10
0.0
 20
0.0
 11
1.0
 21
1.0
 12
210.0
 22
148.5
 13
0.0
 23
0.0
 14
10.0
 24
10.0
 15
10.0
 25
10.0
 16
0.0
 26
0.0
 36
1.0
 17
0.0
 27
0.0
 37
0.0
 40
341.0
 41
1.24
 42
50.0
 43
0.0
 44
0.0
 50
0.0
 51
0.0
 71
     0
 72
   100
 73
     1
 74
     3
 75
     0
 76
     0
 77
     0
 78
     0
  0
ENDTAB
  0
TABLE
  2
LTYPE
  5
5
330
0
100
AcDbSymbolTable
 70
     1
  0
LTYPE
  5
14
330
5
100
AcDbSymbolTableRecord
100
AcDbLinetypeTableRecord
  2
BYBLOCK
 70
     0
  3

 72
    65
 73
     0
 40
0.0
  0
LTYPE
  5
15
330
5
100
AcDbSymbolTableRecord
100
AcDbLinetypeTableRecord
  2
BYLAYER
 70
     0
  3

 72
    65
 73
     0
 40
0.0
  0
LTYPE
  5
16
330
5
100
AcDbSymbolTableRecord
100
AcDbLinetypeTableRecord
  2
CONTINUOUS
 70
     0
  3
Solid line
 72
    65
 73
     0
 40
0.0
  0
ENDTAB
  0
TABLE
  2
LAYER
  5
2
100
AcDbSymbolTable
 70
2
  0
LAYER
  5
50
100
AcDbSymbolTableRecord
100
AcDbLayerTableRecord
  2
0
 70
0
  6
CONTINUOUS
  0
LAYER
  5
51
100
AcDbSymbolTableRecord
100
AcDbLayerTableRecord
  2
Layer_1
 70
0
  6
CONTINUOUS
  0
ENDTAB
  0
TABLE
  2
STYLE
  5
3
330
0
100
AcDbSymbolTable
 70
     1
  0
STYLE
  5
11
330
3
100
AcDbSymbolTableRecord
100
AcDbTextStyleTableRecord
  2
STANDARD
 70
     0
 40
0.0
 41
1.0
 50
0.0
 71
     0
 42
2.5
  3
txt
  4

  0
ENDTAB
  0
TABLE
  2
VIEW
  5
6
330
0
100
AcDbSymbolTable
 70
     0
  0
ENDTAB
  0
TABLE
  2
UCS
  5
7
330
0
100
AcDbSymbolTable
 70
     0
  0
ENDTAB
  0
TABLE
  2
APPID
  5
9
330
0
100
AcDbSymbolTable
 70
     2
  0
APPID
  5
12
330
9
100
AcDbSymbolTableRecord
100
AcDbRegAppTableRecord
  2
ACAD
 70
     0
  0
ENDTAB
  0
TABLE
  2
DIMSTYLE
  5
A
330
0
100
AcDbSymbolTable
 70
     1
  0
DIMSTYLE
105
27
330
A
100
AcDbSymbolTableRecord
100
AcDbDimStyleTableRecord
  2
ISO-25
 70
     0
  3

  4

  5

  6

  7

 40
1.0
 41
2.5
 42
0.625
 43
3.75
 44
1.25
 45
0.0
 46
0.0
 47
0.0
 48
0.0
140
2.5
141
2.5
142
0.0
143
0.03937007874016
144
1.0
145
0.0
146
1.0
147
0.625
 71
     0
 72
     0
 73
     0
 74
     0
 75
     0
 76
     0
 77
     1
 78
     8
170
     0
171
     3
172
     1
173
     0
174
     0
175
     0
176
     0
177
     0
178
     0
270
     2
271
     2
272
     2
273
     2
274
     3
340
11
275
     0
280
     0
281
     0
282
     0
283
     0
284
     8
285
     0
286
     0
287
     3
288
     0
  0
ENDTAB
  0
TABLE
  2
BLOCK_RECORD
  5
1
330
0
100
AcDbSymbolTable
 70
     1
  0
BLOCK_RECORD
  5
1F
330
1
100
AcDbSymbolTableRecord
100
AcDbBlockTableRecord
  2
*MODEL_SPACE
  0
BLOCK_RECORD
  5
1B
330
1
100
AcDbSymbolTableRecord
100
AcDbBlockTableRecord
  2
*PAPER_SPACE
  0
ENDTAB
  0
ENDSEC
  0
SECTION
  2
BLOCKS
  0
BLOCK
  5
20
330
1F
100
AcDbEntity
  8
0
100
AcDbBlockBegin
  2
*MODEL_SPACE
 70
     0
 10
0.0
 20
0.0
 30
0.0
  3
*MODEL_SPACE
  1

  0
ENDBLK
  5
21
330
1F
100
AcDbEntity
  8
0
100
AcDbBlockEnd
  0
BLOCK
  5
1C
330
1B
100
AcDbEntity
 67
     1
  8
0
100
AcDbBlockBegin
  2
*PAPER_SPACE
  1

  0
ENDBLK
  5
1D
330
1B
100
AcDbEntity
 67
     1
  8
0
100
AcDbBlockEnd
  0
ENDSEC
  0
SECTION
  2
ENTITIES
  0
SPLINE
  5
100
100
AcDbEntity
  8
Layer_1
 62
7
100
AcDbSpline
 70
0
 71
3
 72
13
 73
9
 74
7
 40
0.000000
 40
0.000000
 40
0.000000
 40
0.000000
 40
15.619397
 40
30.774015
 40
46.393412
 40
61.359462
 40
75.861399
 40
90.699143
 40
90.699143
 40
90.699143
 40
90.699143
 10
39.933818
 20
69.605040
 30
0.0
 10
34.667658
 20
68.783645
 30
0.0
 10
24.292040
 20
67.165299
 30
0.0
 10
12.868378
 20
55.282317
 30
0.0
 10
8.699126
 20
39.950016
 30
0.0
 10
12.631684
 20
24.851023
 30
0.0
 10
23.093750
 20
13.203475
 30
0.0
 10
32.842759
 20
11.031237
 30
0.0
 10
37.773054
 20
9.932687
 30
0.0
 11
39.933818
 21
69.605040
 31
0.0
 11
24.856124
 21
65.527208
 31
0.0
 11
14.140191
 21
54.811274
 31
0.0
 11
10.062359
 21
39.733581
 31
0.0
 11
13.804032
 21
25.242806
 31
0.0
 11
23.703636
 21
14.645448
 31
0.0
 11
37.773054
 21
9.932687
 31
0.0
  0
SPLINE
  5
101
100
AcDbEntity
  8
Layer_1
 62
7
100
AcDbSpline
 70
0
 71
3
 72
13
 73
9
 74
7
 40
0.000000
 40
0.000000
 40
0.000000
 40
0.000000
 40
1.064574
 40
2.105507
 40
3.179999
 40
4.256708
 40
5.300767
 40
6.366104
 40
6.366104
 40
6.366104
 40
6.366104
 10
37.773054
 20
9.932687
 30
0.0
 10
37.858167
 20
10.284601
 30
0.0
 10
38.026503
 20
10.980613
 30
0.0
 10
38.865180
 20
11.725546
 30
0.0
 10
39.934678
 20
12.001159
 30
0.0
 10
41.004522
 20
11.724994
 30
0.0
 10
41.847578
 20
10.981876
 30
0.0
 10
42.017555
 20
10.284761
 30
0.0
 10
42.103401
 20
9.932687
 30
0.0
 11
37.773054
 21
9.932687
 31
0.0
 11
38.127318
 21
10.936587
 31
0.0
 11
38.892853
 21
11.641921
 31
0.0
 11
39.933818
 21
11.908242
 31
0.0
 11
40.977069
 21
11.641921
 31
0.0
 11
41.746851
 21
10.936587
 31
0.0
 11
42.103401
 21
9.932687
 31
0.0
  0
LINE
  5
102
100
AcDbEntity
  8
Layer_1
 62
7
100
AcDbLine
 10
39.933818
 20
69.605040
 30
0.0
 11
39.933818
 21
69.605040
 31
0.0
  0
SPLINE
  5
103
100
AcDbEntity
  8
Layer_1
 62
7
100
AcDbSpline
 70
0
 71
3
 72
13
 73
9
 74
7
 40
0.000000
 40
0.000000
 40
0.000000
 40
0.000000
 40
14.837109
 40
29.339359
 40
44.303425
 40
59.923418
 40
75.081040
 40
90.702643
 40
90.702643
 40
90.702643
 40
90.702643
 10
42.103401
 20
9.932687
 30
0.0
 10
47.033068
 20
11.032412
 30
0.0
 10
56.781144
 20
13.207042
 30
0.0
 10
67.243284
 20
24.852350
 30
0.0
 10
71.178271
 20
39.950876
 30
0.0
 10
67.005392
 20
55.283634
 30
0.0
 10
55.577735
 20
67.164887
 30
0.0
 10
45.200600
 20
68.783522
 30
0.0
 10
39.933818
 20
69.605040
 30
0.0
 11
42.103401
 21
9.932687
 31
0.0
 11
56.171304
 21
14.647972
 31
0.0
 11
66.071666
 21
25.245052
 31
0.0
 11
69.814096
 21
39.733581
 31
0.0
 11
65.733977
 21
54.811274
 31
0.0
 11
55.013797
 21
65.527208
 31
0.0
 11
39.933818
 21
69.605040
 31
0.0
  0
LINE
  5
104
100
AcDbEntity
  8
Layer_1
 62
7
100
AcDbLine
 10
39.933818
 20
44.099206
 30
0.0
 11
39.933818
 21
44.099206
 31
0.0
  0
SPLINE
  5
105
100
AcDbEntity
  8
Layer_1
 62
7
100
AcDbSpline
 70
0
 71
3
 72
19
 73
15
 74
13
 40
0.000000
 40
0.000000
 40
0.000000
 40
0.000000
 40
2.286478
 40
4.502980
 40
6.787847
 40
9.074921
 40
11.294423
 40
13.581498
 40
15.866365
 40
18.082866
 40
20.369344
 40
22.653615
 40
24.867112
 40
27.151382
 40
27.151382
 40
27.151382
 40
27.151382
 10
39.933818
 20
44.099206
 30
0.0
 10
40.704728
 20
43.979656
 30
0.0
 10
42.222954
 20
43.744214
 30
0.0
 10
43.897451
 20
42.007254
 30
0.0
 10
44.516903
 20
39.736726
 30
0.0
 10
43.896918
 20
37.442099
 30
0.0
 10
42.224260
 20
35.770784
 30
0.0
 10
39.934667
 20
35.150345
 30
0.0
 10
37.645462
 20
35.770243
 30
0.0
 10
35.976862
 20
37.443435
 30
0.0
 10
35.360803
 20
39.736722
 30
0.0
 10
35.976313
 20
42.005940
 30
0.0
 10
37.646824
 20
43.744627
 30
0.0
 10
39.163531
 20
43.979780
 30
0.0
 10
39.933818
 20
44.099206
 30
0.0
 11
39.933818
 21
44.099206
 31
0.0
 11
42.141511
 21
43.504167
 31
0.0
 11
43.710936
 21
41.938988
 31
0.0
 11
44.308262
 21
39.733581
 31
0.0
 11
43.710936
 21
37.525888
 31
0.0
 11
42.141511
 21
35.956463
 31
0.0
 11
39.933818
 21
35.359137
 31
0.0
 11
37.728411
 21
35.956463
 31
0.0
 11
36.163232
 21
37.525888
 31
0.0
 11
35.568193
 21
39.733581
 31
0.0
 11
36.163232
 21
41.938988
 31
0.0
 11
37.728411
 21
43.504167
 31
0.0
 11
39.933818
 21
44.099206
 31
0.0
  0
SPLINE
  5
106
100
AcDbEntity
  8
Layer_1
 62
7
100
AcDbSpline
 70
0
 71
3
 72
10
 73
6
 74
4
 40
0.000000
 40
0.000000
 40
0.000000
 40
0.000000
 40
2.034909
 40
4.222495
 40
6.888437
 40
6.888437
 40
6.888437
 40
6.888437
 10
21.731111
 20
57.291038
 30
0.0
 10
22.394414
 20
57.454204
 30
0.0
 10
23.770787
 20
57.792777
 30
0.0
 10
26.137107
 20
57.260581
 30
0.0
 10
27.300805
 20
56.096177
 30
0.0
 10
27.940000
 20
55.456594
 30
0.0
 11
21.731111
 21
57.291038
 31
0.0
 11
23.738239
 21
57.626137
 31
0.0
 11
25.870478
 21
57.137168
 31
0.0
 11
27.940000
 21
55.456594
 31
0.0
  0
LINE
  5
107
100
AcDbEntity
  8
Layer_1
 62
7
100
AcDbLine
 10
31.891111
 20
59.266594
 30
0.0
 11
32.878889
 21
58.984372
 31
0.0
  0
SPLINE
  5
108
100
AcDbEntity
  8
Layer_1
 62
7
100
AcDbSpline
 70
0
 71
3
 72
10
 73
6
 74
4
 40
0.000000
 40
0.000000
 40
0.000000
 40
0.000000
 40
2.043173
 40
3.907057
 40
5.811228
 40
5.811228
 40
5.811228
 40
5.811228
 10
27.940000
 20
55.456594
 30
0.0
 10
28.616277
 20
55.623797
 30
0.0
 10
29.909488
 20
55.943530
 30
0.0
 10
31.241390
 20
57.490006
 30
0.0
 10
31.672999
 20
58.670192
 30
0.0
 10
31.891111
 20
59.266594
 30
0.0
 11
27.940000
 21
55.456594
 31
0.0
 11
29.860063
 21
56.155103
 31
0.0
 11
31.126451
 21
57.522700
 31
0.0
 11
31.891111
 21
59.266594
 31
0.0
  0
SPLINE
  5
109
100
AcDbEntity
  8
Layer_1
 62
7
100
AcDbSpline
 70
0
 71
3
 72
10
 73
6
 74
4
 40
0.000000
 40
0.000000
 40
0.000000
 40
0.000000
 40
2.049028
 40
4.174557
 40
6.953892
 40
6.953892
 40
6.953892
 40
6.953892
 10
32.878889
 20
58.984372
 30
0.0
 10
32.639953
 20
58.344546
 30
0.0
 10
32.153160
 20
57.041006
 30
0.0
 10
30.615340
 20
55.163672
 30
0.0
 10
28.997729
 20
54.720142
 30
0.0
 10
28.081111
 20
54.468816
 30
0.0
 11
32.878889
 21
58.984372
 31
0.0
 11
32.056945
 21
57.107427
 31
0.0
 11
30.659847
 21
55.505556
 31
0.0
 11
28.081111
 21
54.468816
 31
0.0
  0
LINE
  5
10a
100
AcDbEntity
  8
Layer_1
 62
7
100
AcDbLine
 10
29.351111
 20
49.388816
 30
0.0
 11
28.786667
 21
48.542149
 31
0.0
  0
SPLINE
  5
10b
100
AcDbEntity
  8
Layer_1
 62
7
100
AcDbSpline
 70
0
 71
3
 72
10
 73
6
 74
4
 40
0.000000
 40
0.000000
 40
0.000000
 40
0.000000
 40
2.353450
 40
4.012838
 40
5.563292
 40
5.563292
 40
5.563292
 40
5.563292
 10
28.081111
 20
54.468816
 30
0.0
 10
27.882125
 20
53.688061
 30
0.0
 10
27.542836
 20
52.356805
 30
0.0
 10
28.258700
 20
50.544872
 30
0.0
 10
28.995307
 20
49.765349
 30
0.0
 10
29.351111
 20
49.388816
 30
0.0
 11
28.081111
 21
54.468816
 31
0.0
 11
27.778460
 21
52.134908
 31
0.0
 11
28.359195
 21
50.580457
 31
0.0
 11
29.351111
 21
49.388816
 31
0.0
  0
SPLINE
  5
10c
100
AcDbEntity
  8
Layer_1
 62
7
100
AcDbSpline
 70
0
 71
3
 72
10
 73
6
 74
4
 40
0.000000
 40
0.000000
 40
0.000000
 40
0.000000
 40
2.486694
 40
4.644199
 40
6.939137
 40
6.939137
 40
6.939137
 40
6.939137
 10
28.786667
 20
48.542149
 30
0.0
 10
28.232799
 20
49.168748
 30
0.0
 10
27.198384
 20
50.338996
 30
0.0
 10
26.563034
 20
52.678248
 30
0.0
 10
26.912966
 20
54.139151
 30
0.0
 10
27.093333
 20
54.892149
 30
0.0
 11
28.786667
 21
48.542149
 31
0.0
 11
27.299716
 21
50.535293
 31
0.0
 11
26.753505
 21
52.622511
 31
0.0
 11
27.093333
 21
54.892149
 31
0.0
  0
LINE
  5
10d
100
AcDbEntity
  8
Layer_1
 62
7
100
AcDbLine
 10
22.013333
 20
56.444372
 30
0.0
 11
21.731111
 21
57.291038
 31
0.0
  0
SPLINE
  5
10e
100
AcDbEntity
  8
Layer_1
 62
7
100
AcDbSpline
 70
0
 71
3
 72
10
 73
6
 74
4
 40
0.000000
 40
0.000000
 40
0.000000
 40
0.000000
 40
2.021712
 40
3.792538
 40
5.627731
 40
5.627731
 40
5.627731
 40
5.627731
 10
27.093333
 20
54.892149
 30
0.0
 10
26.618124
 20
55.388070
 30
0.0
 10
25.726676
 20
56.318370
 30
0.0
 10
23.805420
 20
56.768408
 30
0.0
 10
22.617762
 20
56.553662
 30
0.0
 10
22.013333
 20
56.444372
 30
0.0
 11
27.093333
 21
54.892149
 31
0.0
 11
25.553102
 21
56.201732
 31
0.0
 11
23.837861
 21
56.641933
 31
0.0
 11
22.013333
 21
56.444372
 31
0.0
  0
SPLINE
  5
10f
100
AcDbEntity
  8
Layer_1
 62
7
100
AcDbSpline
 70
0
 71
3
 72
10
 73
6
 74
4
 40
0.000000
 40
0.000000
 40
0.000000
 40
0.000000
 40
2.034909
 40
4.222495
 40
6.888438
 40
6.888438
 40
6.888438
 40
6.888438
 10
21.016988
 20
30.858965
 30
0.0
 10
21.680291
 20
31.022131
 30
0.0
 10
23.056664
 20
31.360705
 30
0.0
 10
25.422984
 20
30.828508
 30
0.0
 10
26.586682
 20
29.664104
 30
0.0
 10
27.225877
 20
29.024521
 30
0.0
 11
21.016988
 21
30.858965
 31
0.0
 11
23.024116
 21
31.194064
 31
0.0
 11
25.156355
 21
30.705095
 31
0.0
 11
27.225877
 21
29.024521
 31
0.0
  0
LINE
  5
110
100
AcDbEntity
  8
Layer_1
 62
7
100
AcDbLine
 10
31.176987
 20
32.834521
 30
0.0
 11
32.164765
 21
32.552299
 31
0.0
  0
SPLINE
  5
111
100
AcDbEntity
  8
Layer_1
 62
7
100
AcDbSpline
 70
0
 71
3
 72
10
 73
6
 74
4
 40
0.000000
 40
0.000000
 40
0.000000
 40
0.000000
 40
2.043173
 40
3.907056
 40
5.811227
 40
5.811227
 40
5.811227
 40
5.811227
 10
27.225877
 20
29.024521
 30
0.0
 10
27.902154
 20
29.191724
 30
0.0
 10
29.195364
 20
29.511458
 30
0.0
 10
30.527266
 20
31.057934
 30
0.0
 10
30.958875
 20
32.238119
 30
0.0
 10
31.176987
 20
32.834521
 30
0.0
 11
27.225877
 21
29.024521
 31
0.0
 11
29.145939
 21
29.723031
 31
0.0
 11
30.412327
 21
31.090628
 31
0.0
 11
31.176987
 21
32.834521
 31
0.0
  0
SPLINE
  5
112
100
AcDbEntity
  8
Layer_1
 62
7
100
AcDbSpline
 70
0
 71
3
 72
10
 73
6
 74
4
 40
0.000000
 40
0.000000
 40
0.000000
 40
0.000000
 40
2.049027
 40
4.174556
 40
6.953891
 40
6.953891
 40
6.953891
 40
6.953891
 10
32.164765
 20
32.552299
 30
0.0
 10
31.925829
 20
31.912473
 30
0.0
 10
31.439036
 20
30.608934
 30
0.0
 10
29.901216
 20
28.731600
 30
0.0
 10
28.283606
 20
28.288069
 30
0.0
 10
27.366988
 20
28.036743
 30
0.0
 11
32.164765
 21
32.552299
 31
0.0
 11
31.342822
 21
30.675354
 31
0.0
 11
29.945723
 21
29.073484
 31
0.0
 11
27.366988
 21
28.036743
 31
0.0
  0
LINE
  5
113
100
AcDbEntity
  8
Layer_1
 62
7
100
AcDbLine
 10
28.636987
 20
22.956743
 30
0.0
 11
28.072544
 21
22.110076
 31
0.0
  0
SPLINE
  5
114
100
AcDbEntity
  8
Layer_1
 62
7
100
AcDbSpline
 70
0
 71
3
 72
10
 73
6
 74
4
 40
0.000000
 40
0.000000
 40
0.000000
 40
0.000000
 40
2.353450
 40
4.012838
 40
5.563291
 40
5.563291
 40
5.563291
 40
5.563291
 10
27.366988
 20
28.036743
 30
0.0
 10
27.168002
 20
27.255988
 30
0.0
 10
26.828713
 20
25.924732
 30
0.0
 10
27.544577
 20
24.112799
 30
0.0
 10
28.281183
 20
23.333277
 30
0.0
 10
28.636987
 20
22.956743
 30
0.0
 11
27.366988
 21
28.036743
 31
0.0
 11
27.064336
 21
25.702835
 31
0.0
 11
27.645072
 21
24.148385
 31
0.0
 11
28.636987
 21
22.956743
 31
0.0
  0
SPLINE
  5
115
100
AcDbEntity
  8
Layer_1
 62
7
100
AcDbSpline
 70
0
 71
3
 72
10
 73
6
 74
4
 40
0.000000
 40
0.000000
 40
0.000000
 40
0.000000
 40
2.486694
 40
4.644199
 40
6.939136
 40
6.939136
 40
6.939136
 40
6.939136
 10
28.072544
 20
22.110076
 30
0.0
 10
27.518676
 20
22.736675
 30
0.0
 10
26.484261
 20
23.906924
 30
0.0
 10
25.848911
 20
26.246175
 30
0.0
 10
26.198844
 20
27.707078
 30
0.0
 10
26.379211
 20
28.460076
 30
0.0
 11
28.072544
 21
22.110076
 31
0.0
 11
26.585593
 21
24.103221
 31
0.0
 11
26.039382
 21
26.190439
 31
0.0
 11
26.379211
 21
28.460076
 31
0.0
  0
LINE
  5
116
100
AcDbEntity
  8
Layer_1
 62
7
100
AcDbLine
 10
21.299211
 20
30.012299
 30
0.0
 11
21.016988
 21
30.858965
 31
0.0
  0
SPLINE
  5
117
100
AcDbEntity
  8
Layer_1
 62
7
100
AcDbSpline
 70
0
 71
3
 72
10
 73
6
 74
4
 40
0.000000
 40
0.000000
 40
0.000000
 40
0.000000
 40
2.021712
 40
3.792539
 40
5.627732
 40
5.627732
 40
5.627732
 40
5.627732
 10
26.379211
 20
28.460076
 30
0.0
 10
25.904001
 20
28.955997
 30
0.0
 10
25.012554
 20
29.886297
 30
0.0
 10
23.091298
 20
30.336335
 30
0.0
 10
21.903639
 20
30.121588
 30
0.0
 10
21.299211
 20
30.012299
 30
0.0
 11
26.379211
 21
28.460076
 31
0.0
 11
24.838980
 21
29.769659
 31
0.0
 11
23.123739
 21
30.209860
 31
0.0
 11
21.299211
 21
30.012299
 31
0.0
  0
SPLINE
  5
118
100
AcDbEntity
  8
Layer_1
 62
7
100
AcDbSpline
 70
0
 71
3
 72
10
 73
6
 74
4
 40
0.000000
 40
0.000000
 40
0.000000
 40
0.000000
 40
2.034909
 40
4.222495
 40
6.888438
 40
6.888438
 40
6.888438
 40
6.888438
 10
46.710498
 20
32.103774
 30
0.0
 10
47.373802
 20
32.266940
 30
0.0
 10
48.750175
 20
32.605513
 30
0.0
 10
51.116494
 20
32.073317
 30
0.0
 10
52.280192
 20
30.908913
 30
0.0
 10
52.919387
 20
30.269330
 30
0.0
 11
46.710498
 21
32.103774
 31
0.0
 11
48.717627
 21
32.438873
 31
0.0
 11
50.849865
 21
31.949904
 31
0.0
 11
52.919387
 21
30.269330
 31
0.0
  0
LINE
  5
119
100
AcDbEntity
  8
Layer_1
 62
7
100
AcDbLine
 10
56.870498
 20
34.079330
 30
0.0
 11
57.858276
 21
33.797107
 31
0.0
  0
SPLINE
  5
11a
100
AcDbEntity
  8
Layer_1
 62
7
100
AcDbSpline
 70
0
 71
3
 72
10
 73
6
 74
4
 40
0.000000
 40
0.000000
 40
0.000000
 40
0.000000
 40
2.043173
 40
3.907057
 40
5.811228
 40
5.811228
 40
5.811228
 40
5.811228
 10
52.919387
 20
30.269330
 30
0.0
 10
53.595664
 20
30.436533
 30
0.0
 10
54.888875
 20
30.756267
 30
0.0
 10
56.220777
 20
32.302742
 30
0.0
 10
56.652386
 20
33.482928
 30
0.0
 10
56.870498
 20
34.079330
 30
0.0
 11
52.919387
 21
30.269330
 31
0.0
 11
54.839450
 21
30.967840
 31
0.0
 11
56.105838
 21
32.335436
 31
0.0
 11
56.870498
 21
34.079330
 31
0.0
  0
SPLINE
  5
11b
100
AcDbEntity
  8
Layer_1
 62
7
100
AcDbSpline
 70
0
 71
3
 72
10
 73
6
 74
4
 40
0.000000
 40
0.000000
 40
0.000000
 40
0.000000
 40
2.049027
 40
4.174556
 40
6.953892
 40
6.953892
 40
6.953892
 40
6.953892
 10
57.858276
 20
33.797107
 30
0.0
 10
57.619340
 20
33.157282
 30
0.0
 10
57.132547
 20
31.853742
 30
0.0
 10
55.594727
 20
29.976409
 30
0.0
 10
53.977116
 20
29.532878
 30
0.0
 10
53.060498
 20
29.281552
 30
0.0
 11
57.858276
 21
33.797107
 31
0.0
 11
57.036333
 21
31.920163
 31
0.0
 11
55.639234
 21
30.318292
 31
0.0
 11
53.060498
 21
29.281552
 31
0.0
  0
LINE
  5
11c
100
AcDbEntity
  8
Layer_1
 62
7
100
AcDbLine
 10
54.330498
 20
24.201552
 30
0.0
 11
53.766054
 21
23.354885
 31
0.0
  0
SPLINE
  5
11d
100
AcDbEntity
  8
Layer_1
 62
7
100
AcDbSpline
 70
0
 71
3
 72
10
 73
6
 74
4
 40
0.000000
 40
0.000000
 40
0.000000
 40
0.000000
 40
2.353450
 40
4.012838
 40
5.563292
 40
5.563292
 40
5.563292
 40
5.563292
 10
53.060498
 20
29.281552
 30
0.0
 10
52.861512
 20
28.500797
 30
0.0
 10
52.522223
 20
27.169541
 30
0.0
 10
53.238087
 20
25.357608
 30
0.0
 10
53.974694
 20
24.578086
 30
0.0
 10
54.330498
 20
24.201552
 30
0.0
 11
53.060498
 21
29.281552
 31
0.0
 11
52.757846
 21
26.947644
 31
0.0
 11
53.338582
 21
25.393194
 31
0.0
 11
54.330498
 21
24.201552
 31
0.0
  0
SPLINE
  5
11e
100
AcDbEntity
  8
Layer_1
 62
7
100
AcDbSpline
 70
0
 71
3
 72
10
 73
6
 74
4
 40
0.000000
 40
0.000000
 40
0.000000
 40
0.000000
 40
2.486694
 40
4.644199
 40
6.939136
 40
6.939136
 40
6.939136
 40
6.939136
 10
53.766054
 20
23.354885
 30
0.0
 10
53.212186
 20
23.981484
 30
0.0
 10
52.177771
 20
25.151732
 30
0.0
 10
51.542421
 20
27.490984
 30
0.0
 10
51.892354
 20
28.951887
 30
0.0
 10
52.072721
 20
29.704885
 30
0.0
 11
53.766054
 21
23.354885
 31
0.0
 11
52.279103
 21
25.348029
 31
0.0
 11
51.732892
 21
27.435248
 31
0.0
 11
52.072721
 21
29.704885
 31
0.0
  0
LINE
  5
11f
100
AcDbEntity
  8
Layer_1
 62
7
100
AcDbLine
 10
46.992721
 20
31.257107
 30
0.0
 11
46.710498
 21
32.103774
 31
0.0
  0
SPLINE
  5
120
100
AcDbEntity
  8
Layer_1
 62
7
100
AcDbSpline
 70
0
 71
3
 72
10
 73
6
 74
4
 40
0.000000
 40
0.000000
 40
0.000000
 40
0.000000
 40
2.021711
 40
3.792538
 40
5.627732
 40
5.627732
 40
5.627732
 40
5.627732
 10
52.072721
 20
29.704885
 30
0.0
 10
51.597511
 20
30.200806
 30
0.0
 10
50.706064
 20
31.131106
 30
0.0
 10
48.784808
 20
31.581144
 30
0.0
 10
47.597149
 20
31.366397
 30
0.0
 10
46.992721
 20
31.257107
 30
0.0
 11
52.072721
 21
29.704885
 31
0.0
 11
50.532490
 21
31.014468
 31
0.0
 11
48.817249
 21
31.454669
 31
0.0
 11
46.992721
 21
31.257107
 31
0.0
  0
SPLINE
  5
121
100
AcDbEntity
  8
Layer_1
 62
7
100
AcDbSpline
 70
0
 71
3
 72
10
 73
6
 74
4
 40
0.000000
 40
0.000000
 40
0.000000
 40
0.000000
 40
2.034909
 40
4.222495
 40
6.888438
 40
6.888438
 40
6.888438
 40
6.888438
 10
46.167537
 20
56.381244
 30
0.0
 10
46.830840
 20
56.544409
 30
0.0
 10
48.207213
 20
56.882983
 30
0.0
 10
50.573533
 20
56.350786
 30
0.0
 10
51.737230
 20
55.186382
 30
0.0
 10
52.376426
 20
54.546799
 30
0.0
 11
46.167537
 21
56.381244
 31
0.0
 11
48.174665
 21
56.716342
 31
0.0
 11
50.306903
 21
56.227373
 31
0.0
 11
52.376426
 21
54.546799
 31
0.0
  0
LINE
  5
122
100
AcDbEntity
  8
Layer_1
 62
7
100
AcDbLine
 10
56.327537
 20
58.356799
 30
0.0
 11
57.315314
 21
58.074577
 31
0.0
  0
SPLINE
  5
123
100
AcDbEntity
  8
Layer_1
 62
7
100
AcDbSpline
 70
0
 71
3
 72
10
 73
6
 74
4
 40
0.000000
 40
0.000000
 40
0.000000
 40
0.000000
 40
2.043173
 40
3.907057
 40
5.811228
 40
5.811228
 40
5.811228
 40
5.811228
 10
52.376426
 20
54.546799
 30
0.0
 10
53.052703
 20
54.714002
 30
0.0
 10
54.345913
 20
55.033736
 30
0.0
 10
55.677816
 20
56.580212
 30
0.0
 10
56.109425
 20
57.760397
 30
0.0
 10
56.327537
 20
58.356799
 30
0.0
 11
52.376426
 21
54.546799
 31
0.0
 11
54.296488
 21
55.245309
 31
0.0
 11
55.562877
 21
56.612906
 31
0.0
 11
56.327537
 21
58.356799
 31
0.0
  0
SPLINE
  5
124
100
AcDbEntity
  8
Layer_1
 62
7
100
AcDbSpline
 70
0
 71
3
 72
10
 73
6
 74
4
 40
0.000000
 40
0.000000
 40
0.000000
 40
0.000000
 40
2.049027
 40
4.174556
 40
6.953892
 40
6.953892
 40
6.953892
 40
6.953892
 10
57.315314
 20
58.074577
 30
0.0
 10
57.076379
 20
57.434751
 30
0.0
 10
56.589586
 20
56.131212
 30
0.0
 10
55.051765
 20
54.253878
 30
0.0
 10
53.434154
 20
53.810348
 30
0.0
 10
52.517537
 20
53.559021
 30
0.0
 11
57.315314
 21
58.074577
 31
0.0
 11
56.493371
 21
56.197633
 31
0.0
 11
55.096272
 21
54.595762
 31
0.0
 11
52.517537
 21
53.559021
 31
0.0
  0
LINE
  5
125
100
AcDbEntity
  8
Layer_1
 62
7
100
AcDbLine
 10
53.787537
 20
48.479021
 30
0.0
 11
53.223092
 21
47.632355
 31
0.0
  0
SPLINE
  5
126
100
AcDbEntity
  8
Layer_1
 62
7
100
AcDbSpline
 70
0
 71
3
 72
10
 73
6
 74
4
 40
0.000000
 40
0.000000
 40
0.000000
 40
0.000000
 40
2.353450
 40
4.012838
 40
5.563292
 40
5.563292
 40
5.563292
 40
5.563292
 10
52.517537
 20
53.559021
 30
0.0
 10
52.318550
 20
52.778266
 30
0.0
 10
51.979261
 20
51.447011
 30
0.0
 10
52.695125
 20
49.635077
 30
0.0
 10
53.431732
 20
48.855555
 30
0.0
 10
53.787537
 20
48.479021
 30
0.0
 11
52.517537
 21
53.559021
 31
0.0
 11
52.214885
 21
51.225113
 31
0.0
 11
52.795620
 21
49.670663
 31
0.0
 11
53.787537
 21
48.479021
 31
0.0
  0
SPLINE
  5
127
100
AcDbEntity
  8
Layer_1
 62
7
100
AcDbSpline
 70
0
 71
3
 72
10
 73
6
 74
4
 40
0.000000
 40
0.000000
 40
0.000000
 40
0.000000
 40
2.486694
 40
4.644199
 40
6.939136
 40
6.939136
 40
6.939136
 40
6.939136
 10
53.223092
 20
47.632355
 30
0.0
 10
52.669224
 20
48.258954
 30
0.0
 10
51.634809
 20
49.429202
 30
0.0
 10
50.999459
 20
51.768453
 30
0.0
 10
51.349392
 20
53.229356
 30
0.0
 10
51.529759
 20
53.982355
 30
0.0
 11
53.223092
 21
47.632355
 31
0.0
 11
51.736141
 21
49.625499
 31
0.0
 11
51.189931
 21
51.712717
 31
0.0
 11
51.529759
 21
53.982355
 31
0.0
  0
LINE
  5
128
100
AcDbEntity
  8
Layer_1
 62
7
100
AcDbLine
 10
46.449759
 20
55.534577
 30
0.0
 11
46.167537
 21
56.381244
 31
0.0
  0
SPLINE
  5
129
100
AcDbEntity
  8
Layer_1
 62
7
100
AcDbSpline
 70
0
 71
3
 72
10
 73
6
 74
4
 40
0.000000
 40
0.000000
 40
0.000000
 40
0.000000
 40
2.021711
 40
3.792538
 40
5.627732
 40
5.627732
 40
5.627732
 40
5.627732
 10
51.529759
 20
53.982355
 30
0.0
 10
51.054550
 20
54.478276
 30
0.0
 10
50.163102
 20
55.408576
 30
0.0
 10
48.241846
 20
55.858614
 30
0.0
 10
47.054188
 20
55.643867
 30
0.0
 10
46.449759
 20
55.534577
 30
0.0
 11
51.529759
 21
53.982355
 31
0.0
 11
49.989528
 21
55.291937
 31
0.0
 11
48.274287
 21
55.732138
 31
0.0
 11
46.449759
 21
55.534577
 31
0.0
  0
ENDSEC
  0
SECTION
  2
OBJECTS
  0
DICTIONARY
  5
C
330
0
100
AcDbDictionary
  3
ACAD_GROUP
350
D
  3
ACAD_MLINESTYLE
350
17
  0
DICTIONARY
  5
D
330
C
100
AcDbDictionary
  0
DICTIONARY
  5
1A
330
C
100
AcDbDictionary
  0
DICTIONARY
  5
17
330
C
100
AcDbDictionary
  3
STANDARD
350
18
  0
DICTIONARY
  5
19
330
C
100
AcDbDictionary
  0
ENDSEC
  0
EOF
